Make your own free website on Tripod.com
Artist: Sublime
Album: Sublime
Song: Santeria
From: Justin Bortnicker

**normal tuning**

intro (clean electric guitar )

     E            Ab

E|----------------------------------------------|
B|------------------------4---------------------|
G|-------9-------9---------5-----5--------------|
D|-----9--9----9--9---------6-----6-------------|
A|---7-----7-7-----7---------------6------------|
E|--------------------4-4-----4-4---------------|

     Dbm            B

E|----------------------------------------------|
B|----------5-------------7----7----------------|
G|-----------6---6---------8--------------------|
D|------4h6----6-----9------9-------------------|
A|---4--4------------9--------------------------|
E|-------------------7--7-----------------------|

Verse 1

E                          Ab
I don't practice santeria.  I ain't got no crystal ball.
Dbm                        B
i had a million dollars but i, i spent it all
E                          Ab
if i could find that heina and that sancho that she's found
Dbm                        B
i's pop a cap in sancho and i'd slap her down

Chours 1

A          B       E      Dbm
But all i really wanna know
A          B       E      Dbm
But all i really wanna say I can't define
A          B       E      Dbm
It's love i need
A          B
But my soul will have to ....

Verse 2

E                     Ab
..wait till i get back and find a heina of my own
Dbm            B
daddy's gonna love one
E                              Ab
and i feel the break feel the break feeell the break
                  Dbm            B
and i got to live it out oh yeah well i swear that

Chours 2

A          B       E      Dbm
But all i really wanna know
A          B       E      Dbm
But all i really wanna say I can't define
A          B       E      Dbm
It's love i need
A          B
But my soul will have to ....

Solo (Courtesy of D. Turner of G.W.)

E|---------------------------------|-----------------------|
B|---------------------------------|-----------------------|
G|--------------------9---11b13--9-|--8---8p6---8b9~-------|
D|--------------9h11---------------|-----------------------|
A|---7----9/11---------------------|-----------------------| 
E|---------------------------------|-----------------------| 

E|---------------------------------------|----------------------------0-----|
B|---------------------------------------|--------------------------5----12b|
G|---6--6p4---4--------------------------|----------------------4h6---------|
D|----------6---4b5-p2--2h4p2----2-------|--------------4h5h6---------------|
A|-----------------------------4----4~---|--------2h3h4---------------------|
E|---------------------------------------|--2h3h4---------------------------|

E|---9--------------------------------------------------------------------|
B|------12----------------------------------------------------------------|
G|---------11b13--11b13p9-----9-------------------------------------------|
D|-------------------------11----11p9------------9------------------------|
A|-------------------------------------11--9h11-------11\9---7------------|
E|------------------------------------------------------------------------|  
  
E|---------------------------------|-------------9---------------9------|
B|-------------------------11b12---|--11b12b11------9----11b12-----9----|
G|-------------------------11b12---|------------------9--11b13-------9--|
D|----------10------10-------------|------------------------------------|
A|---10/11------11-----------------|------------------------------------|
E|---------------------------------|------------------------------------|  


E|---------------------------------------|
B|---11b12----11~------------------------|
G|---11b13----11~-----13b11----9---11----|
D|---------------------------------------|
A|---------------------------------------|
E|---------------------------------------|  

key
---
b = bend note
/ = slide
h = hammer
p = pulloff
~ = tremolo (use fingers to do it)

Chorus 3

A          B       E      Dbm
But all i really wanna say
A          B       E      Dbm
But i really wanna say is that i got mine
A          B       E      Dbm
and i'll make it yes i'm comin' up
A          B
tell sanchito that

Verse 3

E                     Ab
..if he knows whats good for him he best go run and hide
Dbm                B
Daddy's got a new .45
E                     Ab
and i won't think twice to put that barrel straight down sancho's throat
Dbm                B
Believe me when i say that i got somethin' for his punk ass

Chorus 4

A          B       E      Dbm
But all i really wanna know
A          B       E      Dbm
But i really wanna say is there's just one
A          B       E      Dbm
way back and i'll make it yeah
A          B            E   Eb  Db  B  A  B  E7
my soul will have to wait





The Sublime Page