Make your own free website on Tripod.com
Artist: Sublime
Album: Robbin' the Hood
Song: Falling Idols
From: Mike Theobald and Dan Miller


Intro

e|-8--8--7-7-7-5--5-5--5-5-5--5-5-3-3-3-0-0-0-0-0-0-0-0-
B|-8--8--7-7-7-5--5-5--5-5-5--5-5-3-3-3-0-0-0-0-0-0-0-0-
G|-9--9--8-8-8-6--6-6--6-6-6--6-6-4-4-4-1-1-1-1-1-1-1-1-
D|-10-10-9-9-9-7--7-7--7-7-7--7-7-5-5-5-2-2-2-2-2-2-2-2-
A|-10-10-9-9-9-7--7-7--7-7-7--7-7-5-5-5-2-2-2-2-2-2-2-2-
E|------------------------------------------------------

e|-8--8--7-7-7-5--5-5--5-5-5--5-5-3-3-3-0-|
B|-8--8--7-7-7-5--5-5--5-5-5--5-5-3-3-3-0-|
G|-9--9--8-8-8-6--6-6--6-6-6--6-6-4-4-4-1-|
D|-10-10-9-9-9-7--7-7--7-7-7--7-7-5-5-5-2-|
A|-10-10-9-9-9-7--7-7--7-7-7--7-7-5-5-5-2-|
E|--------------------------------------0-|

e|-1-1---0-0---1--0-1-1---0--------------|
B|-1---1-0---0-1--0-1---1-0--------------|
G|-2-----1-----2--1-2-----1--------------|
D|-3-----2-----3--2-3-----2--------------|
A|-3-----2-----3--2-3-----2--------------|
E|-1-----0-----1--0-1-----0---```````----|
               w/wammy bar dive and return several times
e|-----------------------------------------------------
B|------8h10p8-7-7-7-7-8-8/12-------8h10p8-7-7-7-7-8-7-
G|-/9-9------------------------/9-9--------------------
D|-----------------------------------------------------
A|-----------------------------------------------------
E|-----------------------------------------------------

e|-----------------------------------------------------
B|------8h10p8-7-7-7-7-8-8/12-------8h10p8-7-7-7-7-8-7-
G|-/9-9------------------------/9-9--------------------
D|-----------------------------------------------------
A|-----------------------------------------------------
E|-----------------------------------------------------

e|---------------------------------------------------------13p12-12-|
B|-5-5-5-5-5-5-6-6/10-9-9h10-10-10/12-12-12-12-13-13-13-13----------|
G|------------------------------------------------------------------|
D|------------------------------------------------------------------|
A|------------------------------------------------------------------|
E|------------------------------------------------------------------|

e|-0-0-0-----1-1-1-----------------------------------------------
B|-0-0---0---1-1---1-------9-----10-10-10------------------------
G|-1-1-----1-2-2-----2-9-9---9---10-10----10----9-9-8-9-10-12-10-
D|-2-2-------3-3-------9-9-----9-10-10-------10-9-9-8-9-10-12-10-
A|-2---------3-3-------7-7-------8--8-----------7-7-6-7-8--10-8--
E|-0---------1---------------------------------------------------

e|-----------------------------------------------------------|
B|-----------------------------------------------------------|
G|-9b-9-9b-9-8b-8-8b-8-7b-7-7b-5---/14b-14-14-14-12----12----|
D|--------------------------------------------------14----14-|
A|-----------------------------------------------------------|
E|-----------------------------------------------------------|

e|--------------------------------------------------------------------
B|--------------------------------------------------------------------
G|-17-17-16-16-16-14--14-14--14-14-14--14-14-12-12-12-9-9-9-9-9-9-9-9-
D|-17-17-16-16-16-14--14-14--14-14-14--14-14-12-12-12-9-9-9-9-9-9-9-9-
A|-15-15-14-14-14-12--12-12--12-12-12--12-12-10-10-10-7-7-7-7-7-7-7-7-
E|--------------------------------------------------------------------

e|-------------------------------------------------
B|-------------------------------------------------
G|-------------------------------------------------
D|-------------------------------------------------
A|-------------------------------------------------
E|-0-0-3h5p3-2-2-2-2-3-3/7-0-0-3h5p3-2-2-2-2-3-3/7-

e|-------------------------------------------------
B|-------------------------------------------------
G|-------------------------------------------------
D|-------------------------------------------------
A|-------------------------------------------------
E|-0-0-3h5p3-2-2-2-2-3-3/7-0-0-3h5p3-2-2-2-2-3-3/7-

e|-0-0-0-----1-1-1-----0-0-----1-1-1-1-0-1-|
B|-0-0---0---1-1---1---0---0---1-1-1-1-0-1-|
G|-1-1-----1-2-2-----2-1-----1-2-2-2-2-1-2-|
D|-2-2-------3-3-------2-------3-3-3-3---3-|
A|-2---------3-3-------2-------3-3-3-3---3-|
E|-0---------1---------0-------1-1-1-1---1-|

e|-----------x-x--------------------x-x--------------------x-x---------
B|-9-9-9-9-9-x-x-10-x-10--9-9-9-9-9-x-x-10-x-10--9-9-9-9-9-x-x-10-x-10-
G|-9-9-9-9-9-x-x-10-x-10--9-9-9-9-9-x-x-10-x-10--9-9-9-9-9-x-x-10-x-10-
D|-9-9-9-9-9-x-x-10-x-10--9-9-9-9-9-x-x-10-x-10--9-9-9-9-9-x-x-10-x-10-
A|-7-7-7-7-7-x-x-8--x-8---7-7-7-7-7-x-x-8--x-8---7-7-7-7-7-x-x-8--x-8--
E|-----------x-x--------------------x-x--------------------x-x---------

e|-----------------------------------------------------------|
B|-----------------------------------------------------------|
G|-9b-9-9b-9-8b-8-8b-8-7b-7-7b-5---/14b-14-14-14-12----12----|
D|--------------------------------------------------14----14-|
A|-----------------------------------------------------------|
E|-----------------------------------------------------------|

e|--------------------------------------------------------------------
B|--------------------------------------------------------------------
G|-17-17-16-16-16-14--14-14--14-14-14--14-14-12-12-12-9-9-9-9-9-9-9-9-
D|-17-17-16-16-16-14--14-14--14-14-14--14-14-12-12-12-9-9-9-9-9-9-9-9-
A|-15-15-14-14-14-12--12-12--12-12-12--12-12-10-10-10-7-7-7-7-7-7-7-7-
E|--------------------------------------------------------------------

e|------------------------------------------------
B|------------------------------------------------
G|------------------------------------------------
D|-----5h7p5-4-4-4-4-5-5/10-----5h7p5-4-4-4-4-5-4-
A|-7-7----------------------7-7-------------------
E|------------------------------------------------

e|------------------------------------------------
B|------------------------------------------------
G|------------------------------------------------
D|-----5h7p5-4-4-4-4-5-5/10-----5h7p5-4-4-4-4-5-4-
A|-7-7----------------------7-7-------------------
E|------------------------------------------------

e|-0-0-0-----1-1-1-----0-0-----1-1-1-1-0-1-|
B|-0-0---0---1-1---1---0---0---1-1-1-1-0-1-|
G|-1-1-----1-2-2-----2-1-----1-2-2-2-2-1-2-|
D|-2-2-------3-3-------2-------3-3-3-3---3-|
A|-2---------3-3-------2-------3-3-3-3---3-|
E|-0---------1---------0-------1-1-1-1---1-|

e|-----------x-x--------------------x-x--------------------x-x---------
B|-9-9-9-9-9-x-x-10-x-10--9-9-9-9-9-x-x-10-x-10--9-9-9-9-9-x-x-10-x-10-
G|-9-9-9-9-9-x-x-10-x-10--9-9-9-9-9-x-x-10-x-10--9-9-9-9-9-x-x-10-x-10-
D|-9-9-9-9-9-x-x-10-x-10--9-9-9-9-9-x-x-10-x-10--9-9-9-9-9-x-x-10-x-10-
A|-7-7-7-7-7-x-x-8--x-8---7-7-7-7-7-x-x-8--x-8---7-7-7-7-7-x-x-8--x-8--
E|-----------x-x--------------------x-x--------------------x-x---------

e|-----------------------------------------------------------|
B|-----------------------------------------------------------|
G|-9b-9-9b-9-8b-8-8b-8-7b-7-7b-5---/14b-14-14-14-12----12----|
D|--------------------------------------------------14----14-|
A|-----------------------------------------------------------|
E|-----------------------------------------------------------|

e|--------------------------------------------------------------------
B|--------------------------------------------------------------------
G|-17-17-16-16-16-14--14-14--14-14-14--14-14-12-12-12-9-9-9-9-9-9-9-9-
D|-17-17-16-16-16-14--14-14--14-14-14--14-14-12-12-12-9-9-9-9-9-9-9-9-
A|-15-15-14-14-14-12--12-12--12-12-12--12-12-10-10-10-7-7-7-7-7-7-7-7-
E|--------------------------------------------------------------------

e|-----------------------------------------------------
B|------8h10p8-7-7-7-7-8-8/12-------8h10p8-7-7-7-7-8-7-
G|-/9-9------------------------/9-9--------------------
D|-----------------------------------------------------
A|-----------------------------------------------------
E|-----------------------------------------------------

e|-----------------------------------------------------
B|------8h10p8-7-7-7-7-8-8/12-------8h10p8-7-7-7-7-8-7-
G|-/9-9------------------------/9-9--------------------
D|-----------------------------------------------------
A|-----------------------------------------------------
E|-----------------------------------------------------

e|---------------------------------------------------------13p12-12-|
B|-5-5-5-5-5-5-6-6/10-9-9h10-10-10/12-12-12-12-13-13-13-13----------|
G|------------------------------------------------------------------|
D|------------------------------------------------------------------|
A|------------------------------------------------------------------|
E|------------------------------------------------------------------|

e|-0-0-0-----1-1-1-----------------------------------------------
B|-0-0---0---1-1---1-------9-----10-10-10------------------------
G|-1-1-----1-2-2-----2-9-9---9---10-10----10----9-9-8-9-10-12-10-
D|-2-2-------3-3-------9-9-----9-10-10-------10-9-9-8-9-10-12-10-
A|-2---------3-3-------7-7-------8--8-----------7-7-6-7-8--10-8--
E|-0---------1---------------------------------------------------

e|-0-0-0-----1-1-1-----------------------------------------------
B|-0-0---0---1-1---1-------9-----10-10-10------------------------
G|-1-1-----1-2-2-----2-9-9---9---10-10----10----9-9-8-9-10-12-10-
D|-2-2-------3-3-------9-9-----9-10-10-------10-9-9-8-9-10-12-10-
A|-2---------3-3-------7-7-------8--8-----------7-7-6-7-8--10-8--
E|-0---------1---------------------------------------------------

e|-----------------------------------------------------------------------
B|-----------------------------~~-17-17-16-16-16-14-14-14-14-14-14-14-14-
G|-9b-9-9b-9-8b-8-8b-8-7b-7-7b-5--17-17-16-16-16-14-14-14-14-14-14-14-14-
D|--------------------------------17-17-16-16-16-14-14-14-14-14-14-14-14-
A|--------------------------------15-15-14-14-14-12-12-12-12-12-12-12-12-
E|-----------------------------------------------------------------------

e|--------------------------------------------------
B|-14-14-12-12-12-9-9-9-9---------------------------
G|-14-14-12-12-12-9-9-9-9-14b-14-14-14-12----12-----
D|-14-14-12-12-12-9-9-9-9-----------------14----14--
A|-12-12-10-10-10-7-7-7-7---------------------------
E|--------------------------------------------------

e|-----------x-x--------------------x-x--------------------x-x------------|
B|-9-9-9-9-9-x-x-10-x-10--9-9-9-9-9-x-x-10-x-10--9-9-9-9-9-x-x-10-x-10--9-|
G|-9-9-9-9-9-x-x-10-x-10--9-9-9-9-9-x-x-10-x-10--9-9-9-9-9-x-x-10-x-10--9-|
D|-9-9-9-9-9-x-x-10-x-10--9-9-9-9-9-x-x-10-x-10--9-9-9-9-9-x-x-10-x-10--9-|
A|-7-7-7-7-7-x-x-8--x-8---7-7-7-7-7-x-x-8--x-8---7-7-7-7-7-x-x-8--x-8---7-|
E|-----------x-x--------------------x-x--------------------x-x------------|





Sinsemilla Home