Make your own free website on Tripod.com
Artist: Sublime
Album: Robbin' the Hood
Song: Rivers of Babyon
From: Tabbed and Lyrics done by Andy and Masta’ Rob


Wooooo woooo (cheers from the audience)
Riff 1 
Riff 1
Riff2
Riff3
Two chord progression G and D with capo on 1st fret

By the rivers of Babylon
Where he sat down
And there he went
When he remembered Zion
Over the wicked carry us away captivity
Required from us a song
How can we sing from us a song in a strange land
So let the words of our mouths and the medidation of our heart
Be acceptable in thy sight 
Over right

*****Xylophone solo******* With Riff 1 2 times, Riff 2, and Riff 3
By the rivers of Babylon
Where he sat down
And there he went 
When he remembered Zion
Over the wicked carry us away captivity
Required from us a song
How can we sing from us a song in a straaaaannngggge........land


Riff 1 (relative to capo)
6--------------
5--------------
4--------------
3--------------
2-----2-2-3-0
1-3-3---------

Riff 2 (relative to capo)
6---------------
5---------------
4---------------
3---------------
2----2-2-3-3-0
1---------------

Riff 3 (relative to capo)
6--2----------------3----
5--3----------------2----
4--2----2^3 -------0----
3--------------2^3- 0---
2--------------------3---
1--------------------3---

The Sublime Page