Make your own free website on Tripod.com
Artist: Sublime
Album: 40oz. to freedom
Song: we're only gonna die for our arrogance
From: Justin Bortnicker
Additional Help: Dan Miller

**normal tuning**

intro:
e|--------------------------------------------------------------------------------------------|
B|------------------------------------------------------------8-7-----------------------------|
G|------------------------------------------------------5b--9-----9--7b-5h6h7-------------5b--|
D|----------------------------------------------------------------------------5/7-7-7-7-7-----|
A|--12-12-12-12\10-10-10-10\9-9-9-9\5-5-5-5-7-7-7-7-7-7---------------------------------------|
E|--------------------------------------------------------------------------------------------|

e|-----------------17-17-15---15-17-17----17-15-14--------------------------------------------|
B|--15-15-15-17-17---------------------17---------17-15-13------------------------------------|
G|---------------------------------------------------------14---14-14-14\12-12-12\11-11\9-7---|
D|------------------------------------------------------------------------------------------7-|
A|--------------------------------------------------------------------------------------------|
E|--------------------------------------------------------------------------------------------|


verse1:upstrokes
    A       G       D         A
e|--5-5--|--3-3--|--10-10--|--3-3--|
B|--5-5--|--3-3--|--10-10--|--3-3--|
G|--6-6--|--4-4--|--11-11--|--4-4--|
D|-------|-------|---------|-------|
A|-------|-------|---------|-------|
E|-------|-------|---------|-------|


------------------------------------------------------------------------


verse2:palm mute
    A                   G                   D                   A
e|-------------------|-------------------|-------------------|-------------------|
B|-------------------|-------------------|-------------------|-------------------|
G|-------------------|-------------------|--7-7-7-7-7-7-7-7--|-------------------|
D|--7-7-7-7-7-7-7-7--|--5-5-5-5-5-5-5-5--|--7-7-7-7-7-7-7-7--|--5-5-5-5-5-5-5-5--|
A|--7-7-7-7-7-7-7-7--|--5-5-5-5-5-5-5-5--|--5-5-5-5-5-5-5-5--|--5-5-5-5-5-5-5-5--|
E|--5-5-5-5-5-5-5-5--|--3-3-3-3-3-3-3-3--|-------------------|--3-3-3-3-3-3-3-3--|


------------------------------------------------------------------------


heavy part after "let's go!":
    G A    G A    G A    C  G
e|-----------------------------|
B|-----------------------------|
G|-----------------------5-----|
D|--5/7-7--5/7-7--5/7-7--5--5--|
A|--5/7-7--5/7-7--5/7-7--3--5--|
E|--3/5-5--3/5-5--3/5-5-----3--| 

Lyrics

Early man walked away as modern man took control their
minds weren't all the same and to conquer was their goal
So he built his great empire and he slaughtered his own
kind He died a confused man and he killed himself with
his own mind...LET'S GO!! (repeat)

we're only gonna die from our own arrogance that's why we
might as well take our time



The Sublime Page