Make your own free website on Tripod.com
Artist: Sublime
Album: 40oz. to Freedom
Song: 40oz. to Freedom
From: Justin Bortnicker
Additional Help: Dan Miller

**normal tuning**

intro: x2
    G            C       D
e|--3-3-3-3---|--8-8--|--10-10--|
B|--3-3-3-3---|--8-8--|--10-10--|
G|--4-4-4-4---|--9-9--|--11-11--|
D|------------|-------|---------|
A|------------|-------|---------|
E|------------|-------|---------|


------------------------------------------------------------------------


verse: palm mute(it's really the bass part but it sounds good on guitar)
e|-------------------------------------------|--------------------------------------------|
B|-------------------------------------------|--------------------------------------------|
G|-------------------------------------------|--------------------------------------------|
D|--------------------------------1-1-1-1-1--|---------------------0-0-0-0-0-0------------|
A|-------2-------5-2---3-3-3-3-3-------------|-------2-------5-2---------------1-1-1-1-1--|
E|--3--3---3-3-3-----------------------------|--3--3---3-3-3------------------------------|


------------------------------------------------------------------------


chorus: x4 distortion(play kind of sloppy)
e|-------------------|-----------|-----------|
B|-------------------|-----------|-----------|
G|-------------------|--3-3-3-3--|-----------|
D|--5-5-5-5-5-5-5-5--|--3-3-3-3--|--3-3-3-3--|
A|--5-5-5-5-5-5-5-5--|--1-1-1-1--|--3-3-3-3--|
E|--3-3-3-3-3-3-3-3--|-----------|--1-1-1-1--|


------------------------------------------------------------------------


interlude: talking

solo/interlude:                                        (this part's 
messed up)           

e|----7-8/10-------7-8-7-------7-8-7--------------------7/10-13-12-10----7-8-7----------------|
B|--8------------8-------8---8-------8--8-6p5--3------8----------------8-------8--8-6p5--3----|
G|-----------------------------------------------5-----------------------------------------5--|
D|--------------------------------------------------------------------------------------------|
A|--------------------------------------------------------------------------------------------|
E|--------------------------------------------------------------------------------------------|


------------------------------------------------------------------------


outro: slowly
e|-----------|
B|-----------|
G|-----5-----|
D|--3--5--5--|
A|--3--3--5--|
E|--1-----3--|

Lyrics

You got your hair permed 
you got your red dress on 
screamin' that second gear was such a turn on 
and the fog forming on my window tells me that the mornings here 
and you'll be gone before too long 
Who taught you those new tricks? 
Damn I shouldn't start that talk 
but life is one big question when your starin' at the clock 
And the answers always waiting at the liqour store-40oz to freedom so 
I'll take that walk 
And i know that 

ooohhh....I'm not goin' back 
ohhh not going back 
God knows I'm not going back 
oooohhhh not goin'(echo)

Spoken: "Hey man does anyone wanna make a run down to AM/PM with me?It's 
like quarter to right now, bro shit can you like, bum me a buck or two 
dude? Sean said he was gonna be here about 2:00 I havn't even seen him 
totally broke,man Todd owes me twenty bucks your over it" 

And you look so fine when you lie it just don't show 
that i know which way the wind blows 
A 40oz to freedom is the only chance I have to feel good 
even though i feel bad 
And I know that 

ooohhh....I'm not comin' back 
Ohh I'm not going back 
Ohh God knows im not going back 
Ohhh I'm...not goin' 
And I know that ooohhh....I'm not comin' back 
Ohh I'm not going back 
Ohh God knows im not going back 
Ohhh

If you have any suggestions, corrections of comments, Mail Me and I'll do what
i can. Thanx.